ACCEDI

Password dimenticata?

×
Seguici su Instagram Feed RSS Seguici su YouTube
Visualizzazione risultati da 1 a 1 su 1

Tablatura chitarra Monkey island theme

  1. #1
    Murray
    Uomo 26 anni
    Iscrizione: 18/12/2010
    Messaggi: 20
    Piaciuto: 2 volte

    Predefinito Tablatura chitarra Monkey island theme

    MOnkey Island Theme

    e|------------------------12----------------------------------------|
    B|--------------------------12--------------------------------------|
    G|----------------------------1211----------9---11------9-----------|
    D|--------------------------------------12----------12------9-------|
    A|------------------------------------------------------------------|
    E|------------------------------------------------------------------|

    e|-------------------------------------------------------------------10----|
    B|-----------------------------------------------------------10--12--------|
    G|----------------------------------------------9--11---12-----------------|
    D|---------9---------12----11-----------12---------------------------------|
    A|-10--12------------------------------------------------------------------|
    E|-------------------------------------------------------------------------|

    e|-12----------------------------------------------|
    B|-------------------------------------------------|
    G|-------------------------------------------------|
    D|-------------------------------------------------|
    A|-------------------------------------------------|
    E|-------------------------------------------------|

    e|---------0---0-3-2-0-----0---------------------------------------|
    B|---------------------3---------------3---3-1-0-3-1---1---0-------|
    G|-----------------------------------------------------------------|
    D|-----------------------------------------------------------------|
    A|-----------------------------------------------------------------|
    E|-----------------------------------------------------------------|

    e|---------0---0-3-2-0-----0-------------2-3---3---5-------2-----3-2-0---2-|
    B|---------------------3-----------------------------------------------3---|
    G|-------------------------------------------------------------------------|
    D|-------------------------------------------------------------------------|
    A|-------------------------------------------------------------------------|
    E|-------------------------------------------------------------------------|

    e|-3---3---2-------0-----3-2-0---2-|-3---3---2-------0-----3-2-0-----|
    B|-----------------------------3---|-----------------------------3---|
    G|---------------------------------|---------------------------------|
    D|---------------------------------|---------------------------------|
    A|---------------------------------|---------------------------------|
    E|---------------------------------|---------------------------------|

    e|-0---0---0-----------0-------------------|
    B|-------------------------3-1-0-3-1---1---|
    G|-----------------------------------------|
    D|-----------------------------------------|
    A|-----------------------------------------|
    E|-----------------------------------------|

    e|-------------------------------------------------|
    B|-0-----------------------------------------------|
    G|-------------------------------------------------|
    D|------------------------------------------9---12-|
    A|-------------------------------------------------|
    E|-------------------------------------------------|



    e|-------------------------------------------------------------------------|
    B|-------------------121013--------------------------------------10--10--10|
    G|-9---12--12------------------12--12----------12----------------------11--|
    D|-----------------10------12--------------9-------10--11--11------12------|
    A|-------------------------------------------------------------------------|
    E|-------------------------------------------------------------------------|

    e|-----------------------------------------------------------------|
    B|-----------------------------------------------------------------|
    G|-12--11--9-------------------------------------------------------|
    D|-------------9---9-----------------------------------------------|
    A|-----------------------9---10------------------------------------|
    E|-----------------------------------------------------------------|

    e|-7-----------------------------------------------------------3---|
    B|-----8---8-----8-7---8---7-8---8---------------------------------|
    G|-----------------------------9---8-------------------------------|
    D|-----------------------------------------------------------------|
    A|-----------------------------------------------------------------|
    E|-----------------------------------------------------------------|

    e|-5---2---2-----2-0---2---0-2-----|
    B|-----------------------------3---|
    G|---------------------------------|
    D|---------------------------------|
    A|---------------------------------|
    E|---------------------------------|

    e|-0---0-3-2-0-----0---------------------------------------|
    B|-------------3---------------3---3-1-0-3-1---1---0-------|
    G|---------------------------------------------------------|
    D|---------------------------------------------------------|
    A|---------------------------------------------------------|
    E|---------------------------------------------------------|

    e|---------0---0-3-2-0-----0-------------2-3---3---5-------2-----3-2-0---2-|
    B|---------------------3-----------------------------------------------3---|
    G|-------------------------------------------------------------------------|
    D|-------------------------------------------------------------------------|
    A|-------------------------------------------------------------------------|
    E|-------------------------------------------------------------------------|

    e|-3---3---2-------0-----3-2-0---2-|-3---3---2-------0-----3-2-0-----|
    B|-----------------------------3---|-----------------------------3---|
    G|---------------------------------|---------------------------------|
    D|---------------------------------|---------------------------------|
    A|---------------------------------|---------------------------------|
    E|---------------------------------|---------------------------------|

    e|-0---0---0-------------------------------|
    B|---------------------3---1-0-1---0-------|
    G|-----------------------------------------|
    D|-----------------------------------------|
    A|-----------------------------------------|
    E|-----------------------------------------|


    e|-----0---0-----3-2-0-----0---0---------3-5-3-2-5-3-0-2-3-0------|
    B|---------------------3------------------------------------------|
    G|----------------------------------------------------------------|
    D|----------------------------------------------------------------|
    A|----------------------------------------------------------------|
    E|----------------------------------------------------------------|

  2. # ADS
     

Discussioni simili

  1. PC: The Secret of Monkey Island: Special Edition
    Da Lantis nel forum Videogiochi e trucchi
    Risposte: 11
    Ultimo messaggio: 2/9/2010, 16:29
  2. Monkey Island su N95!
    Da Jekko nel forum Telefonia e cellulari
    Risposte: 4
    Ultimo messaggio: 27/6/2009, 18:55
  3. cero tablatura
    Da 22swhinstiger nel forum Musica
    Risposte: 3
    Ultimo messaggio: 25/10/2008, 12:35
  4. Monkey Island 2 Soundtrack - Bone Song
    Da Coso nel forum Video musicali
    Risposte: 1
    Ultimo messaggio: 11/9/2008, 22:14
  5. monkey
    Da winnie nel forum File e video umoristici
    Risposte: 3
    Ultimo messaggio: 17/1/2006, 13:57